Arpeggios

Halo lagi para pembaca blog ini sekalian, setelah kemarin membahas sedikit tentang rythm guitar, kali ini saya akan membahas tentang arpeggios.

Apakah itu arpeggios? Arpeggios adalah sebuah chord yang dimainkan nadanya satu persatu, atau dikenal juga broken-chord. Misalnya Arpeggios C major, untuk memainkannya kita hanya perlu menekan nada C, E, dan G secara berurutan di tangga nada.

Berikut adalah contoh tabulasi dari arpeggios C Major

pattern 1

e|--------------0--3--0-------------------------|
B|-----------1-----------1----------------------|
G|--------0----------------0--------------------|
D|-----2----------------------2-----------------|
A|--3----------------------------3-----------3--|
E|----------------------------------3--0--3-----|

pattern 2

e|-----------------3-----------------------|
B|--------------5-----5--------------------|
G|-----------5-----------5-----------------|
D|-----2--5-----------------5--2-----------|
A|--3-----------------------------3-----3--|
E|-----------------------------------3-----|

Lalu apa kegunaan arpeggios? Kegunaan arpeggios adalah untuk memainkan suatu improvisasi melodi, membuat solo, membuat lagu, bahkan dapat digunakan untuk menemukan akor suatu lagu. Jika kita amati baik-baik setiap gitaris dunia pasti menggunakan arpeggios dalam permainannya, bahkan pemain gitar yang benar-benar menggunakan arpeggios murni, seperti syn gates dari a7x.

Nada yang kita hasilkan dari arpeggios sangatlah unik, oleh sebab itu marilah kita berlatih, dan mengembangkan permainan gitar kita. Selamat mencoba.

Leave a Reply

Fill in your details below or click an icon to log in:

WordPress.com Logo

You are commenting using your WordPress.com account. Log Out / Change )

Twitter picture

You are commenting using your Twitter account. Log Out / Change )

Facebook photo

You are commenting using your Facebook account. Log Out / Change )

Google+ photo

You are commenting using your Google+ account. Log Out / Change )

Connecting to %s